Father and Son (intro)

G   /   /   /   G   /   /   /   G   /   /   /   G   /   /   /  

2-----2-2-3-------------0-------2-----2-2-3-------------0-------  

3-------3---------3-------------3-------3---------3-------------  

2-------2-------0-----0---------2-------2-------0-----0---------  

0-------0-----------------------0-------0-----------------------

 

G   /   /   /   G   /   /   /   G   /   /   /   G   /   /   /  

2-----2-2-3-------------0-------2-----2-2-3---------------------  

3-------3---------3-------------3-------3-----------------------  

2-------2-------0-----0---------2-------2-----------------------  

0-------0-----------------------0-------0-----------------------

Riff 1                           

Am  /   D   /  

0---------------

0---0-3-2-------

0-------2-------

2-------2-------