Father and Son (instrumental)

/ / G / / / D / / / C / / / Am7 / / G / / / Em/ / / Am/ / / D /

2-3-5---2-3-5---2-3-5---5-5-7-----0-2-----0-2---3-2-2-0-0---0---

----3-------2-------0-------0-3-3---3---3---3-------0-----3-2---

----2-------2-------0-------0-------2-------4-------0-------2---

----0-------2-------0-------0-------0-------0-------2-------2---

 

/ / G / / / D / / / C / / / Am7 / / G / / / Em/ / / Am/ / / D /

2-3-5---2-3-5---2-3-5---5-5-7-----0-2-----0-2---3-2---0---------

----3-------2-------0-------0-3-3---3---3---3-------3---0-3-2---

----2-------2-------0-------0-------2-------4-------0-------2---

----0-------2-------0-------0-------0-------0-------2-------2---

 

/ / G / / / D / / / C / / / Am7 / / G / / / Em/ / / Am/ / / D /

2-3-5---2-3-5---2-3-5-5-5-5-7-----0-2-----0-2-2-3-2-2-0---------

----3-------2-------0-------0-3-3---3---3---3-------0---0-3-2---

----2-------2-------0-------0-------2-------4-------0-------2---

----0-------2-------0-------0-------0-------0-------2-------2---

 

/ / G / / / D / / / C / / / Am7 / / G / / / Em/ / / D / / / G /

2-3-5---2-3-5---2-3-5-5-5-5-7-----0-2-----0-2---3-2-2-----------

----3-------2-------0-------0-3-3---3---3---3-------2-5-3-2-3---

----2-------2-------0-------0-------2-------4-------2-------2---

----0-------2-------0-------0-------0-------0-------2-------0---

 

/ / D / / / C / G / / /

--2-5-----2-3-2---------

----2-------0---3-------

----2-------0---2-------

----2-------0---0-------

Mike Gradwell

Ukulele and Classical Guitar Tuition

Contact

​Tel:  01524 941548

​Mail: mike.gradwell@gmail.com

 

Follow Mike
  • w-facebook
  • w-youtube