Father Ted

C           F            G          Am    

3-----0-----0------------------------------

0-----0---3-1-----3----0-3-----0-----0-----

0-----0-----0-----0---2--2-----2---2-0-----

0-----0-----2-----2------0-----0-----2-----

 

      F                       Cm6              C#7

--0-3-5----------0-3-----0-----0---------------------2-

0-----5-----8------1-----1---3-3-----3-----3-----1-----

------5-----5------0-----0-----3-----3---3-3-----------

----------------0--2-----2-----0-----0-----0-------1---   

 

C           F            G          Am    

3-----0-----0------------------------------

0-----0---3-1-----3----0-3-----0-----0-----

0-----0-----0-----0---2--2-----2---2-0-----

0-----0-----2-----2------0-----0-----2-----

 

      F                             Gsus2  C       

--0-3-5----------0-3-----0----0-3-----0----3-----

0-----5-----8------1-----1---3--1-----3----0-----

------5-----5------0-----0------0-----2----0-----

----------------0--2-----2------2-----0----0-----   

Mike Gradwell

Ukulele and Classical Guitar Tuition

Contact

​Tel:  01524 941548

​Mail: mike.gradwell@gmail.com

 

Follow Mike
  • w-facebook
  • w-youtube