Father Ted

C     /     F     /     G     /     Am    /     

3-----0-----0-------------------------------0-3-

0-----0---3-1-----3----03-----0-----0-----0-----

0-----0-----0-----0---2-2-----2---2-0-----------

0-----0-----2-----2-----0-----0-----2-----------

 

F     /     /     /     Cm6   /     /     C#7

5-----3----03-----0-----0---------------------2-

1-----1-----1-----1---3-3-----3-----3-----1-----

0-----0-----0-----0-----3-----3---3-3-----------

2-----2---0-2-----2-----0-----0-----0-------1--- 

 

C     /     F     /     G     /     Am    /     

3-----0-----0-------------------------------0-3-

0-----0---3-1-----3----03-----0-----0-----0-----

0-----0-----0-----0---2-2-----2---2-0-----------

0-----0-----2-----2-----0-----0-----2-----------

 

F     /     /     /     F     Gsus2 C     /

5-----3----03-----0----03-----0-----3-----------

1-----1-----1-----1---3-1-----3-----0-----------

0-----0-----0-----0-----0-----2-----0-----------

2-----2---0-2-----2-----2-----0-----0-----------

Mike Gradwell

Ukulele and Classical Guitar Tuition

Contact

​Tel:  01524 941548

​Mail: mike.gradwell@gmail.com

 

Follow Mike
  • w-facebook
  • w-youtube