Fire and Rain James Taylor

Intro   

C   /   /   /   Bb  /   /   /   F   /   /   C   /   /   /  

----3---------------1-----------0---------------------------

0-------3---0-----------1-------1---3---1---3-----0-1-0-----

0-0-------------3-2---------2---0-----------0-----------2-0-

0---------------3---------------2-----------0---------------

 

C   /   /   /   G   /   /   /   Bbmaj7  /   /   Bbmaj7  /  

--------------------------------------0---------------0-----

0-------0-----------------------1---1-----1-----1---1-----1-

0---------------2-------2-------2-2---------2---2-2---------

0---------------0---------------3---------------3-----------

C                         G                               F                       C       (riff 1)

    Just yesterday morning they let me know you were gone

                    G                                    Bb                Bbmaj7 Bb

Susanne the plans they made put an end to you

C                             Gm                  F                         C       (riff 1)

    I walked out this morning and I wrote down this song,

                     G                       Bb

I just can't remember who to send it to

 

Chorus

F                Dm                       C     (riff 1)           

   I've seen fire and I've seen rain            

       F                                  Dm                             C    (riff 1)

I've seen sunny days that I thought would never end

               F                              Dm                    C        (riff 1)      

I've seen lonely times when I could not find a friend       

         Bb                                 Gm         C      /

But I always thought that I'd see you again

Riff 1

C   /   /   /  

----------------

--0-1-0-----0---

----0---2-0-0---

----0-------0---

Mike Gradwell

Ukulele and Classical Guitar Tuition

Contact

​Tel:  01524 941548

​Mail: mike.gradwell@gmail.com

 

Follow Mike
  • w-facebook
  • w-youtube