Fireman Bold

Intro

G7/ / G7/ / C7/ / C7/ / F7/ / F7/ / Bb7 / Bb7 / Eb7 / Eb7 / Ab7 /

8-----------7-----------6-----------5-----------4-----------3-----

7-7---------6-6---------5-5---------4-4---------3-3---------2-2---

7---7-7-----7---7-7-----5---5-5-----5---5-5-----3---3-3-----3---3-

------------------------------------------------------------------

Ab7 / G / / G / / G / / G / / G / / G / / G / /

------------------------------------------X-----

------------------7---7-7---8-X---X-X-7-X-7-----

3-----7---7-7---9-7-----7-----7-----7-----7-----

------7-----7-----7-----7-----7-----7-----7-----

Pugh, Pugh, Barney McGrew, Cuthbert, Dibble, Grub.

G / / G / / G / / G / / G / / G / / G / /

------------------------------------X-----

------------7---7-7---8-X---X-X-7-X-7-----

7---7-7---9-7-----7-----7-----7-----7-----

7-----7-----7-----7-----7-----7-----7-----

 

G / / C / / C / / G / / G / / Dm/ / Dm/ / C / / C / / C / /

------------3-----2-0---------------------------------------

1-0---------0-----3---3-3-----1-0---1-0---0-1-3-3-----------

----2-0-----0-----2-----2-----2---2-2---2-0-----0-----0-----

------0-----0-----0-----0-----2-----2-----0-----0-----0-----

 

C / / G / / G / / D / / D / / G / / G / / C / / C / / G / /

3-----2-0-------------------0-------------------3-----2-0---

0-----3---3-3-----2-0---2-3---3-----1-0---------0-----3---3-

0-----2-----2-----2---2-2-----2---------2-0-----0-----2-----

0-----0-----0-----2-----2-----0-----------0-----0-----0-----

 

G / / Dm/ / Dm/ / C / / C / / C / / C / / G / / G / / D / /

------------------------------------3-----2-0---------------

3-----1-0---1-0---0-1-3-3-----------0-----3---3-3-----2-0---

2-----2---2-2---2-0-----0-----0-----0-----2-----2-----2---2-

0-----2-----2-----0-----0-----0-----0-----0-----0-----2-----

 

D / / G / / G / / F / / F / / G / / G / / C / / C / / Am/ /

----0-----------------0-0-----2-3-5-5-----------------0-2-3-

2-3---3-----------1-3---------3-----------0-1-3-3-----0-----

2-----2-----------0-----------2-----------0-----------0-----

2-----0-----------2-----------0-----------0-----------2-----

 

Am/ / F / / F / / C / / C / / D / / D / / G / / G / / G / /

3---------0-0-----------0-2-3-5---5-3-2-0-------------------

------1-3-----3-1-0-1-3-------2-----------3-------3-3-3-----

------0-----------0-----------2-----------2-----------2-----

------2-----------0-----------2-----------0—----------0-----

 

G / / G / / G / / G / / G / / G / / G / / C / / C / / G / /

------2---------2-5---5-3-2-0-------------------3-----2-0---

----3-3-------3---3-----------3-----1-0---------0-----3---3-

--2---2-----------2-----------2---------2-0-----0-----2-----

------0-----------0-----------0-----------0-----0-----0-----

 

G / / Dm/ / Dm/ / C / / C / / C / / C / / G / / G / / D / /

------------------------------------3-----2-0---------------

3-----1-0---1-0---0-1-3-3-----------------3---3-3-----2-0---

2-----2---2-2---2-0-----0-----0-----------2-----2-----2---2-

0-----2-----2-----0-----0-----0-----------0-----0-----2-----

 

D / / G / / G / / C / / C / / G / / G / / Dm/ / Dm/ / C / /

----0-------------------3-----2-0---------------------------

2-3---3-----1-0---------0-----3---3-3-----1-0---1-0---0-1-3-

2-----2---------2-0-----0-----2-----2-----2---2-2---2-0-----

2-----0-----------0-----0-----0-----0-----2-----2-----0-----

 

C / / C / / C / / G / / G / / F / / G / / C / / C / / C / /

------------3-----2-0-------------0-2-3-5-3-----3-----------

3-----------0-----3---3-3-----1-3---3-----0-----0-----------

0-----0-----0-----2-----2-----0-----2-----0-----0-----------

0-----0-----0-----0-----0-----2-----0-----0-----0-----------