Fireman Bold

Intro G7 C7 F7 Bb7 D#7 Ab7

G                                    

-------------------------------------X-

------------7---7-7---8--X---X-X-7-X-X-

7---7-7---9-7-----7------7-----7-----7-

7-----7-----7-----7------7-----7-----7-

Pugh, Pugh, Barney McGrew, Cuthbert, Dibble, Grub.

G                                    

-------------------------------------X-----

------------7---7-7---8--X---X-X-7-X-X-----

7---7-7---9-7-----7------7-----7-----7-----

7-----7-----7-----7------7-----7-----7-----

      C           G           Dm          C           /

------------3-----2-0---------------------------------------

1-0---------0-----3---3-3-----1-0---1-0---0-1-3-3-----------

----2-0-----0-----2-----------2---2-----2-0-----------0-----

------0-----0-----0-----------------------0-----------0-----

 

      G           D           G           C           G    

3-----2-0-------------------0-------------------3-----2-0---

0-----3---3-3-----2-0---2-3---3-----1-0---------0-----3---3-

0-----2-----------2---2-2-----2---------2-0-----0-----2-----

0-----0-----------2-----2-----0-----------0-----0-----0-----

 

      Dm          C           /           G           D      

------------------------------------3-----2-0---------------

3-----1-0---1-0---0-1-3-3-----------0-----3---3-3-----2-0---

------2---2-----2-0-----------0-----0-----2-----------2---2-

------------------0-----------0-----0-----0-----------2-----

 

      G           F           G           C           Am   

----0-----------------0-0-----2-3-5-5-----------------0-2-3-

2-3---3-----------1-3---------3-----------0-1-3-3-----0-----

2-----2-----------0-----------2-----------0-----------0-----

2-----0-----------2-----------------------0-----------2-----

 

      F           C           D           G           G

3---------0-0-----------0-2-3-5---5-3-2---------------------

------1-3-----3-1-0-1-3-------2---------5-3-------3-3-3-----

------0-----------0-----------2-----------2-----------2-----

------2-----------0-----------2-----------0—----------0-----

 

      G                                   C           G    

------2---------2-5---5-3-2-0-------------------3-----2-0---

----3-3-------3---3-----------3-----1-0---------0-----3---3-

--2---2-----------2-----------2---------2-0-----0-----2-----

------0-----------0-----------0-----------0-----0-----0-----

 

      Dm          C           /           G           D    

------------------------------------3-----2-0---------------

3-----1-0---1-0---0-1-3-3-----------------3---3-3-----2-0---

------2---2-----2-0-----------0-----------2-----------2---2-

------------------0-----------0-----------0-----------2-----

 

      G           C           G           Dm          C    

----0-------------------3-----2-0---------------------------

2-3---3-----1-0---------0-----3---3-3-----1-0---1-0---0-1-3-

2-----2---------2-0-----0-----2-----------2---2-----2-0-----

2-----0-----------0-----0-----0-----------------------0-----

 

      /           G           F     G     C     C

------------3-----2-0-------------0-2-3-5-3-----3-----

3-----------0-----3---3-3-----1-3---3-----0-----0-----

------0-----0-----2-----------0-----2-----0-----0-----

------0-----0-----0-----------2-----------0-----0-----

Mike Gradwell

Ukulele and Classical Guitar Tuition

Contact

​Tel:  01524 941548

​Mail: mike.gradwell@gmail.com

 

Follow Mike
  • w-facebook
  • w-youtube