First Song Ralph McTell

Intro  

C   /   /   G   Am  Em  F   /   Dm  /   G   /   C   /   /   /   

7-----7-7---5---3---2---0-------0-3-----3---2---3---------------

0-------0---3---0---3---1-------1-------3-------0---------0-----

0-------0---2---0---4---0-------2-------2-------0---2---2-------

0-------0---0---2---0---2-------2-------0-------0---0---0-------

 

C   /   /   G   Am  Em  F   /   Dm  /   G   /   C   /   /   /   

7-----7-7---5---3---2---0-------0-3-----3---2---3---------------

0-------0---3---0---3---1-------1-------3-------0-------0-------

0-------0---2---0---4---0-------2-------2-------0---2---0-------

0-------0---0---2---0---2-------2-------0-------0---0---0-------

                   C                     G    Am Em  F             G             C  

I've written words that say I'm leaving, words express the pain,

                         G      Am   Em F               Dm                   G

Old songs lose their mea..ea..nings, but new ones they gain

          F                   Em                         Dm                C

From changes that I've been through, and what I'm coming to,

C     G            Am  Em   F              Dm     G C          

You were my fir....irst  song, and I still...        

C   /   /   G   Am  Em  F   /   Dm  /   G   /   C   /   /   /   

7-----7-7---5---3---2---0-------0-3-----3---2---3---------------

0-------0---3---0---3---1-------1-------3-------0-------0-------

0-------0---2---0---4---0-------2-------2-------0---2---0-------

0-------0---0---2---0---2-------2-------0-------0---0---0-------