Freebird lynyrd Skynyrd (intro)

G       D       Em      /       F       Am      D       /       (x2)

----------------------------------------------------------------

3-------2-------320-------------1-------0-------3---2---0---2---

-------------------24-------------------------------------------

----------------------------------------------------------------

                             

G       D       Em      /       F       Am7     D       /       (x2)

--------------------------------------------------------5-------

3-----232-----2-320---------------1110--------------------------

-------------------24--24---242-0-----0-------0-202-------------

----------------------------------------0-----------------------