Galway Girl (instrumental)

/ D / / / D / / / G / / / D / / / G / D / G / D / A / / / / / D

------------------2-2-245-2------02-2-0-------------------------

-02-0----02-2-20------------5-2-2-------2-320-2---0-0-02320-----

2-----2-2-------2----------------------------2--2-----------2-2-

----------------------------------------------------------------

/ D / / / D / / / G / / / D / / / G / D / G / D / A / / / / / D

------------------2-2-245-2------02-2-0-------------------------

-02-0----02-2-20------------5-2-2-------2-320-2---0-0-02320-----

2-----2-2-------2----------------------------2--2-----------2-2-

----------------------------------------------------------------

 

/ G / / / G / / / D / / / A / / / G / D / G / D / A / / / / / D

-02--02-0-2-4-5--20-0-0----------02-2-0-------------------------

2----------------------3230-------------2-320-2---0-0-02320-----

---------------------------------------------2--2-----------2-2-

----------------------------------------------------------------

Mike Gradwell

Ukulele and Classical Guitar Tuition

Contact

​Tel:  01524 941548

​Mail: mike.gradwell@gmail.com

 

Follow Mike
  • w-facebook
  • w-youtube