God Rest Ye Merry Gentlemen

    Dm  /   /   /   /   /   /   /   /   /   /   /   A7  /   /  

--------0---0---------------------------------------0-----------

----------------3---1---0---------------0---1---3---0-----------

2---2---------------2-------2---0---2---------------1-----------

----2---------------2---------------2---------------0-----------

 

    Dm  /   /   /   /   /   /   /   /   /   /   /   A7  /   /  

--------0---0---------------------------------------0-----------

----------------3---1---0---------------0---1---3---0-----------

2---2---------------2-------2---0---2---------------1-----------

----2---------------2---------------2---------------0-----------

 

    Gm  /   /   /   C   /   /   /   Dm  /   /   /   C   /   /  

0---1-------0---1---3---5---0-----------------------------------

----3---3-----------0-----------3---1-------0---1---3-------1---

----2---------------0---------------2---2-----------0-----------

----0---------------0---------------2---------------0-----------

 

    F   /   /   /   A7  /   /   /   Dm  /   /   /   C  /   /  

----0-------1---0---0-------------------------------------------

3---1---------------0---3---1---0-----------1-0-----3------1----

----0---------------1---------------2-----------2---0-----------

----2---------------0---------------2---------------0-----------

 

    F   /   /   /   A7  /   /   /   Dm  /   /   /   C  /   /  

----0---1---3---5---0-------------------------------------------

3---1---------------0---3---1---0-------------------------------

----0---------------1---------------2---------------------------

----2---------------0---------------2---------------------------

Mike Gradwell

Ukulele and Classical Guitar Tuition

Contact

​Tel:  01524 941548

​Mail: mike.gradwell@gmail.com

 

Follow Mike
  • w-facebook
  • w-youtube