Godfather Theme

  /   Am  /   Dm  /   Am  /   /   /   Am  /   Dm  /   Dm  /   /

--0-3-2-0-3-0-2-0-----------------0-3-2-0-3-0-2-0---------------

0-----0-------1---1-3-0---------0-----0-------1---0-------------

------0-------2-------0---------------0-------2-----3-2---------

------2-------2-------2---------------2-------2-------2---------

 

  /   G#dim7  /   /   Am  /   /   /   Dm  /   G#dim   Am  /   /

----0-2---------------0-------------------------------0---------

--1---1-----------1-4-0-------------0-1-0-3-1-1-0-0---0---------

2-----2---------2-----0-----------0---2-------2-------0---------

------1---------------2---------2-----2-------1-----1-2---------

 

Mike Gradwell

Ukulele and Classical Guitar Tuition

Contact

​Tel:  01524 941548

​Mail: mike.gradwell@gmail.com

 

Follow Mike
  • w-facebook
  • w-youtube