Gravity Falls

Dm  /   /   /   F   /   /   /   A7  /   /   /   /   /   /   /
----------------------------------------------------------------
1-------1-------1-------1-------0-------0-------0-------0-------
--2---2---2---2---0---0---0---0---1---1---1---1---1---1---1---1-
----2-------2-------2-------2-------0-------0-------0-------0---

 

Dm  /   /   /   /   /   /   /   F   /   /   /   /   /   /   /
--------------------------------0-----------0-------------------
------------0---1---------------1-------3-----------------------

2---------------2---------------0---------------0---------------
2---------------2---------------2---------------2---------------

 

Bb  /   /   /   /   /   /   /   C   /   /   /   /   /   /   /
----------------------------------------0-----------------------
------------0---1-------0-------3---------------3-------1-------
2---------------2---------------0---------------0---------------
3---------------3---------------0---------------0---------------

 

Dm  /   /   /   /   /   /   /   F   /   /   /   /   /   /   /
0---------------0---0-----------0---0---0---0-------0-----------
1---1---1---1---1-------3---1---1---------------3-------3---1---

2---------------2---------------0---------------0---------------
2---------------2---------------2---------------2---------------

 

Dm  /   /   /   /   /   /   /   F   /   /   /   A   /   /   /
0---------------0---0---------------0---0---0-------4---4---4---
1---1---1---1---1-------3---1---1---------------0---------------

2---------------2---------------0---------------1---------------
2---------------2---------------2---------------2---------------

 

Dm  /   /   /   /   /   /   /   F   /   /   /   A7  /   /   /
0---------------0---0---------------0---0---0-----------4-------
1---1---1---1---1-------3---1---1---------------0---------------

2---------------2---------------0---------------1---------------
2---------------2---------------2---------------2---------------

 

Dm  /   /   /   A7  /   /   /   Dm  /   /   /
0-----------------------------------------------
1---1-------1---3---0-------0-------------------
2-------2-------1-------1-------2---------------
2---------------0---------------2---------------

Mike Gradwell

Ukulele and Classical Guitar Tuition

Contact

​Tel:  01524 941548

​Mail: mike.gradwell@gmail.com

 

Follow Mike
  • w-facebook
  • w-youtube