Green Tambourine The Lemon Pipers

Intro

C   /   /   /   C   /   /   /   C   /   /   /   C   /   /   /  

----------------------------------------------------------------

0-------0-1-----3-------3-1-----0-------0-----------------------

0---------------0---------------0---------3-2---0-------0-2-3---

0---------------0---------------0---------------0---------------

 

C   /   /   /   C   /   /   /   F   /   /   /   C   /   G   F  

------------------------1-0-------------------------------------

0-------0-1-----3-----------3---1-------0-------0--00-----3---1-

0---------------0---------------0---------3-2---0--00-----2---0-

0---------------0---------------2---------------0--00-----0---2-

 

G F   C                         G       F          C      G F    

             Drop your silver in my tambourine.         

C                         G         F         C         G F 

Help a poor man fill his pretty dream

Fm                                        C       G F 

Give me pennies I'll take anything.     

        Eb                 Bbm  Bbm                               C   G F  C  G F 

Now listen while I play,           my green tambourine