Greensleeves

      Gm          F           Eb          D

------------5-7-5-----------------------------------

------6---8-6-----8---5-----5-6---3-3---3-5---2-----

----7-7-----7-----5-----5-7---3-----3-6---2-----2---

------0-----0-----5-----5-----3-----3-----2-----2---

 

  Gm          F           Eb    D     Gm

--------5-7-5-------------------------------------

--6---8-6-----8---5-----5-6-5-3-2---2-3---3-3-----

--7-----7-----5-----5-7---3-----2-4---2-----2-----

0-0-----0-----5-----5-----3-----2-----0-----0-----

 

Dm          F           Eb          D 

8-----8-7-5-------------------------------------

5-----5-----8---5-----5-6---3-3---3-5---2-------

5-----5-----5-----5-7---3-----3-6---2-----2-----

7-----7-----5-----5-----3-----3-----2-----2-----

 

Dm          F           Eb    D     Gm

8-----8-7-5-------------------------------------

5-----5-----8---5-----5-6-5-3-2---2-3-----3-----

5-----5-----5-----5-7---3-----2-4---2-----2-----

7-----7-----5-----5-----3-----2-----0-----0-----

Mike Gradwell

Ukulele and Classical Guitar Tuition

Contact

​Tel:  01524 941548

​Mail: mike.gradwell@gmail.com

 

Follow Mike
  • w-facebook
  • w-youtube