Hail To The Chief

C   /   /   /   C   /   /   /   C   /   /   /   G   /   /   /   

----0--23---2--0---0----------------3--57---5--35--45--75-3-2-0-

3-------0-------3---3-0---------3-------0-------3-------3-------

0-------0-------0-------2---0---0-------0-------2-------2-------

0-------0-------0-------0-------0-------0-------0-------0-------

 

C   /   /   /   C   /   /   /   C   /   F   /   G   /   C   /   

----0--23---2--0---0----------------3--20-3---------3--23-------

3-------0-------3---3--0--------3-------1---3-0---------0-------

0-------0-------0-------2---0---0-------0-------2-------0---0-2-

0-------0-------0-------0-------0-------2-------0-------0-------

 

C   /   /   /   G   /   /   /   C   /   /   /   G   /   /   /   

----------------------------------------------------------------

0---0--00---1--0-------0--------0---0--01-0---------3--33-1-0---

0-------0-------2--02---2-------0-------0---2-0-2-------2-----2-

0-------0-------0---------4-0---0-------0-------0-------0-------

 

C   /   F   /   C   /   /   /   F   /   C   /   G   /   /     C   

3---3--20-2-3-0-----3--57---5--30--23-0---0---------------0-2-3----

0-------1-------3-------0-------1-------3---3-0-3-------3-----0----

0-------0-------0-------0-------0-------0-------2-------------0----

0-------2-------0-------0-------2-------0-------0-------------0----

Mike Gradwell

Ukulele and Classical Guitar Tuition

Contact

​Tel:  01524 941548

​Mail: mike.gradwell@gmail.com

 

Follow Mike
  • w-facebook
  • w-youtube