Happy Birthday Altered Images

Intro

D   /   /   /   D   /   /   /   A   /   /   /   A   /   /   /   (x2)

5---5-----2-----5---5-----2-----0---------------0---------------

2-----5-----5---2-----5-----5---0---2-0---2-0---0---2-0---2-0---

2---------------2---------------1---------------1---------------

2---------------2---------------2---------------2---------------

D                                                   A     (x3)

Happy birthday, Happy birthday,                  

 

Instrumental

D   /   G D /   A   /   /   /   D   /   G D /   A   /   /   /   (x2)

----------------------------------------------------------------

--------3-2-----0-----------------------3-2-----0---------------

2---2-----------1-----------1---2---2-----------1-----------1---

2---------------2---2--24-------2---------------2---2--24-------