Harry Potter Theme

Gm  /   /   Gm  /   /   F   /   /   F   /   /   Gm  /   /   Gm  

----1---0-----------5---3-----------0---------------1---0-------

3-----------3-----------1-----------1-----------3-----------2---

2-----------2-----------0-----------0-----------2-----------1---

0-----------0-----------2-----------2-----------0-----------0---

 

/   /   D   /   /   D   /   /   Gm  /   /   Gm  /   /   F   /

------------------------------------1---0-----------5---8-------

----3---------------------------3-----------3-----------5-------

--------2-----------2-------2---2-----------2-----------5-------

--------2-----------2-----------0-----------0-----------5-------

 

/   Gm  /   /   Gm  /   /   D   /   /   Gm  /   /   Gm  /   /  

6---5-----------5-------------------0---------------------------

----6-------6---6-------6---------------3-----------3-----------

----7-----------7---------7-2-----------2-----------2-----------

----0-----------0-----------2-----------0-----------0-----------

Mike Gradwell

Ukulele and Classical Guitar Tuition

Contact

​Tel:  01524 941548

​Mail: mike.gradwell@gmail.com

 

Follow Mike
  • w-facebook
  • w-youtube