Have You Ever Seen The Rain

Creedence Clearwater Revival

Intro    

Am  /   /   /   F   /   /   /   C   /   /   /
0-----------------------------------------------
0---------------1---------------0---------------
0---------------0---------------0---------------
2---------------2---------------0---------------

                                                                                                   Riff 1
G   /   /   /   C   /   /   /   G   /   /   /   C*
0-------------------------------3-2-----0-----------
3-3-----0--03-------------------3----------33-------
2---------------0---------------2---------------0---
0---------------0---------------0---------------0---

C*                                                                                                  G
    Someone told me long ago there's a calm before the storm, I know 
                           C  
It's been coming for some time
                                                                                G         
When it's over, so they say, it'll rain a sunny day, I know
                             C  
Shining down like water

F               G                       C     Em7        Am   Am7
    I wanna know have you ever seen the rain 
F               G                       C     Em7        Am   Am7  
    I wanna know have you ever seen the rain              

F               G                         C     G C (riff 1)

   Coming down on a sunny day