Hector's House

F / / F / / F / / F / / C / / C / / C / / C / /
------0-----1-----0-----------5-----3-----------
----1---------------3-1-0-----------------------
0-----------------------0-----------------------
2---------0-------------0-----------------------

 

C / / C / / C / / C / / F / / F / / F / / F / /
------5-----3-----------------5-----3-----------
0-----------------------1-----------------------
0-----------------------0-----------------------
0-----------------------2-----------------------

 

F / / F / / F / / F / / C / / C / / C / / C / /
------0-----1-----0-----------5-----3-----------
----1---------------3-1-0-----------------------
0-----------------------0-----------------------
2---------0-------------0-----------------------

 

C / / C / / C / / C / / F / / F / / F / / F / /
------5-----3-----3-1---------------------------
0---------------------3-1-----------------------
0-----------------------0-----------------------
0-----------------------2-----------------------

Mike Gradwell

Ukulele and Classical Guitar Tuition

Contact

​Tel:  01524 941548

​Mail: mike.gradwell@gmail.com

 

Follow Mike
  • w-facebook
  • w-youtube