Here Comes The Sun (intro)

G   /   /   /   G   /   /   /   Cmj7/   /   /   D   /   /   /  

----2---0-2---------2-0-------------2-0-------------------------
3-----3---------3-----------3---0-----------3---2---------------
2---------------2---------------0---------------2-------2-------
0---------------0---------------0---------------2---------------

G   /   /   /   G   /   /   /   Cmj7/   /   /   D   /   /   /  

----2---0-2---------2-0-------------2-0-------------------------
3-----3---------3-----------3---0-----------3---2---------------
2---------------2---------------0---------------2---------------
0---------------0---------------0---------------2---------------

 

G   /   /   /   G   /   /   /   Cmj7/   /   /   A7  /   /   /  

----2-0-----2-------2---0-2---------2-0-----2---0-------0-------
3---------------3-----3---------0---------------0-3---------3---
2---------------2---------------0---------------1---------------
0---------------0---------------0---------------0---------------

G   /   /   /   C6    G     Am    G     D7  /   G   /   /   /    

----2-0-------------0-----0-----0-----0-------------------------
------------3-----3-----3-----3-----3---3-2-0---3---------------
2-------------2-4-----2-----0-----2-----------2-2---------------
0-----------------------------------------------0---------------

 

 

Mike Gradwell

Ukulele and Classical Guitar Tuition

Contact

​Tel:  01524 941548

​Mail: mike.gradwell@gmail.com

 

Follow Mike
  • w-facebook
  • w-youtube