Hey Hey, My My

Am              G               Am  /   /   /       /   /   /   (x2)

0-------0-2-3---5-------2-0-----0-------------------------------

0---------------3-----------3---0-------------------------------

0---------------2---------------0-------------------------------

2---------------0---------------2-------------------------------

 

C               G               Am  /   /   /   F   /   /   /  

3-------3-5-7---X-------Z-X-7---0-------0-2-3---0---------------

0---------------7---------------0---------------1---------------

0---------------7---------------0---------------0---------------

0---------------7---------------2---------------2---------------

 

Am              G               Am  /   /   /       /   /   / 

0-------0-2-3---5-------2-0-----0-------------------------------

0---------------3-----------3---0-------------------------------

0---------------2---------------0-------------------------------

2---------------0---------------2-------------------------------

Mike Gradwell

Ukulele and Classical Guitar Tuition

Contact

​Tel:  01524 941548

​Mail: mike.gradwell@gmail.com

 

Follow Mike
  • w-facebook
  • w-youtube