Hit Me With Your Rhythm Stick Ian Dury

Intro

Em  /   /   /   Em  /   /   /   Em  /   /   /   Em  /   /   / 

--------0-------0-----2-----------------0-------0---------------

----3---3---3---3---3---------------3---3---3---3---3-----------

4-------4-------4---------------4-------4-------4-----4---------

0-------0-------0---------------0-------0-------0---------------

 

Em  /   /   /   Em  /   /   /   Em  /   /   /   Em  /   /   / 

--------0-------0-----2-----------------0-------0---------------

----3---3---3---3---3---------------3---3---3---3---3-----------

4-------4-------4---------------4-------4-------4-----4---------

0-------0-------0---------------0-------0-------0---------------

 

A   A   /   /   B   B   /   /      

0---0-----------2---2-----------

0---0-----------2---2-----------

1---1-----------3---3-----------

2---2-----------4---3-----------

 

Em  /   /   /   Em  /   /   /   Em  /   /   /   Em  /   /   / 

--------0-------0-----2-----------------0-------0---------------

----3---3---3---3---3---------------3---3---3---3---3-----------

4-------4-------4---------------4-------4-------4-----4---------

0-------0-------0---------------0-------0-------0---------------

 

Mike Gradwell

Ukulele and Classical Guitar Tuition

Contact

​Tel:  01524 941548

​Mail: mike.gradwell@gmail.com

 

Follow Mike
  • w-facebook
  • w-youtube