Hold Me Close David Essex

Intro
G   /   /   /   C   /   /   /   G   /   /   /   C   /   /   /
------------------------------------------------3---2---0-------
----3-3---2-3-------3-3---2-3-------3-3---2-3---0-----------3--
2---------------0---------------2---------------0---------------
0---------------0---------------0---------------0---------------

 

G   /   /   /   C   /   /   /   G   /   /   /   C   /   /   /
------------------------------------------------7---5---2---0---
----3-3---2-3-------3-3---2-3-------3-3---2-3---0---------------
2---------------0---------------2---------------0---------------
0---------------0---------------0---------------0---------------


G            C                           G         C   
Hold me close don't let me go, oh no

G         C                                            D                    D7

I, yes I love you and I think that you know, do you know

                G              C                     Am                        C    D
With your love light shining, every cloud’s got a silver  lining
     G           C                            G
So hold me close, don't let me go

Mike Gradwell

Ukulele and Classical Guitar Tuition

Contact

​Tel:  01524 941548

​Mail: mike.gradwell@gmail.com

 

Follow Mike
  • w-facebook
  • w-youtube