Holding Out For A Hero Bonnie Tyler

Intro Am / / /

Am  /   /   /   Am  /   /   /   Am7 /   /   /   Am7 /   /   /    

3---3--23-3---2-3---3--23-5---2-3---3--23-3---2-3---3--23-5---2-

0-------0-------0-------0-------0---------0-----0-------0-------

0-------0-------0-------0-------0---------0-----0-------0-------

2-------2-------2-------2-------0---------0-----0-------0-------

 

F   /   /   /   F   /   /   /   Am  /   /   /   E7  /   /   /    

3---3--23-3---2-3---3--23-5---2-3---3--23-3---5-8---7-5---7-5---

1-------1-------1-------1-------0-------0-------4-----4-----4---

0-------0-------0-------0-------0-------0-------4-----4-----4---

2-------2-------2-------2-------2-------2-------4-----4-----4---

 

Am  /   /   /   Am  /   /   /   Am7 /   /   /   Am7 /   /   /    

0-------------------------------0-------------------------------

0---------------0---------------0---------------0---------------

0-----------0-------------------0-----------0-------------------

2-------------------------------0-------------------------------

 

F   /   /   /   F   /   /   /   Am  /   /   /   E7  /   /   /    

0-------------------------------0---3---------------2-----------

1---------------0---------------0---------------0---------------

0-----------0-------------------0---------------2---------------

2-------------------------------2---------------1---------------

 

Am                                                                  Em

        Where have all the good men gone and where are all the gods?

F                                                        E7

Where’s the street-wise Hercules to fight the rising odds?

Am                                             Em

       Isn’t there a white knight upon a fiery steed?

Dm                                                        Esus4                E

       Late at night I toss and turn and I dream of what I need.

 

              Am                                     Em

I need a hero, I’m holding out for a hero ‘til the end of the night,

         F                                                                          C                                    G

He’s gotta be strong and he’s gotta be fast, and he’s gotta be fresh from the fight.

              Am                                     Em

I need a hero, I’m holding out for a hero till the morning light,

         F

He’s gotta be sure, and it’s gotta be soon,

               C                              G                        Am*

And he’s gotta be larger than life, larger than life

 

 Am*                     Am7                    F                       Am        E

        Do do do do,        do do do do,    do do do do,      aaah   aaah

Mike Gradwell

Ukulele and Classical Guitar Tuition

Contact

​Tel:  01524 941548

​Mail: mike.gradwell@gmail.com

 

Follow Mike
  • w-facebook
  • w-youtube