Hoots Mon

/   F   /   /   /   Bb  /   /   /   F   /   /   /   C   /   /  

----0---------------------------5---3---0-5-3---0---------------

1-3-1-------------------1-1---------1---------------3-----------

----0---0-0---0---0-2---------------0---------------0-----------

----2---------------3---------------2---------------0-----------

 

/   F   /   /   /   Bb  /   /   /   F   /   C   /   F   /   /  

----0-------------------------------0-0-0-0---------------------

1-3-1-------------------1---1---3---1-------3-3-----1-----------

----0---0-0---0---0-2---------------0-------0-------0-----------

----2---------------3---------------2-------0-------2-----------

 

/   F   /   /   /   Bb  /   /   /   F   /   /   /   C   /   /  

----0---------------------------5---3---0-5-3---0---------------

1-3-1-------------------1-1---------1---------------3-----------

----0---0-0---0---0-2---------------0---------------0-----------

----2---------------3---------------2---------------0-----------

 

/   F   /   /   /   Bb  /   /   /   F   /   C   /   F   /   /  

----0-------------------------------0-0-0-0---------------------

1-3-1-------------------1---1---3---1-------3-3-----1-----------

----0---0-0---0---0-2---------------0-------0-------0-----------

----2---------------3---------------2-------0-------2-----------

 

/   F   /   /   /   F   /   /   /   E   /   /   /   E   /   /  

----------------------------------------------------------------

----8-8-8-8-5-------8---8---5-------7-7-7-7-4-------7---7---4---

----5---------5-----5---------------4---------4-----4-----------

----5---------------5---------------4---------------4-----------

 

/   F   /   /   /   F   /   /   /   C   /   /   /   C   /   /   /   C   /   /

------------------------------0-1-2-3-------------------3-------3---------------

----8-8-8-8-5-------8---8---5-------0-------------------0-------0---------------

----5---------5-----5---------------0-------------------0-------0---------------

----5---------------5---------------0-------------------0-------0---------------

                                       Hoots mon,         loose  aboot this hoose

                                       there’s a moose

/   F   /   /   /   Bb  /   /   /   F   /   /   /   C   /   /  

----0---------------------------5---3---0-5-3---0---------------

1-3-1-------------------1-1---------1---------------3-----------

----0---0-0---0---0-2---------------0---------------0-----------

----2---------------3---------------2---------------0-----------

 

/   F   /   /   /   Bb  /   /   /   F   /   C   /   F   /   /   /

----0-------------------------------0-0-0-0------------------------

1-3-1-------------------1---1---3---1-------3-3-----1--------------

----0---0-0---0---0-2---------------0-------0-------0--------------

----2---------------3---------------2-------0-------2--------------

Mike Gradwell

Ukulele and Classical Guitar Tuition

Contact

​Tel:  01524 941548

​Mail: mike.gradwell@gmail.com

 

Follow Mike
  • w-facebook
  • w-youtube