How Does It Feel? Slade

Intro   

D / / / D / / / C / / / C / / / D / / / D / / / C / / / C / / /

5---4-2---------3---2-----3-2---5---4-2---------3---2-----3-2---

2-----2---5-2-5-0-----3-----0-3-2-----2---5-2-5-0-----3-----0-3-

2-----2-----2---0-----0-----0---2-----2-----2---0-----0-----0---

2-----2-----2---0-----0-----0---2-----2-----2---0-----0-----0---

D                                        C                               

How does it feel, runnin’ around, round, round?

D                                                C

How does it feel, watchin’ from upside down?

            Gm6                                                D                      

‘Cause many years from now there will be new sensations,

        D7                                           G

And new temptations, how does it feel?

 

D                                            C       

How does it feel, right at the start?

        D                                              C

And how does it feel, when you are thrown apart?

            Gm6                                                D                    

‘Cause many years from now there will be new elations,

        D7                                          G      A                       D    Dmaj7 D7

And new frustrations, how does it feel? O..oh,   oh, oh, oh.

 

Chorus

Em                                    F#7                                 Bm

       Do you know, know, know what it's like to be searching in your own time?

               Em                       F#7                          Bm      D

All your attempting, experimenting, all on the climb.

Em                                    F#7                                 Bm

       Do you know, know, know what it's like to be searching and suddenly find

               Em                          F#7                     Bm      A

All your illusion, all your confusion, all left behind.

Riff One (played after second chorus and intro)

D   /   /   /   D   /   /   /   C   /   /   /   C   /   /   /   (x2)

--------------------------------3--2--------3--2--------3--2----

2--35---5---2--35---5---2--35---0---3---3---0---3---3---0---3---

2---2---2---2---2---2---2---2---0---0---0---0---0---0---0---0---

2---2---2---2---2---2---2---2---0---0---0---0---0---0---0---0---