I Feel  Fine (intro)

G   /   /   / G G   /   /   /   F   /   /   / F F   /   /   /  

--------------3---2---0---2-------------------1---0-------0-----

----3---3-1-------------------------1---1-------------3---------

2-----------2-------------------0---------3-0-------------------

0-------------------------------2-------------------------------

 

C   /   /   /   C   /   /   /   C   /   /   /   C   /   /   /  

----------------------------------------------------------------

--------------1---0-------0-------------------1---0-------0-----

----0---0-------------2-------------0---0-------------2---------

0---------3-0-------------------0---------3-0-------------------