I Vow To Thee My Country

    F           C           F           C           F      

----0-----3-2---3-5-3---2---0-2-0-------------------0-----3-

0-3-1---------3-0-----------1-------3---0-------0-3-1-------

----0-----------0-----------0-----------0-----------0-------

----2-----------0-----------2-----------0-----------2-------

 

    C           F           C           G           G      

2---3-5-7---7---7—5-----5---3-------------------------------

--3-0-----------5---8-------0-------3-0-----------0---------

----0-----------5-----------0-----------2---2---0---2-------

----0-----------5-----------0-----------0-----------0---0---

 

    G           F           F           C           G      

----------------0-------0-2-3---2---0-------3---------------

3-0---------0-3-1-----------1-----------3-------0-----------

----2---2-------0-----------0-----------0-----------2---0---

----0-----------2-----------2-----------0-----------0-------

 

    G           F           C           F           C      

----------------0-----3-2---3-5-3---2---0-2-0---------------

--0-3-------0-3-1---------3-0-----------1-------3---0-------

2---2-----------0-----------0-----------0-----------0-------

----0-----------2-----------0-----------2-----------0-------

 

    F           C           F           C           

----0-----3-2---3-5-7---7---7—5-----5---3-------

0-3-1---------3-0-----------5---8-------0-------

----0-----------0-----------5-----------0-------

----2-----------0-----------5-----------0-------

Mike Gradwell

Ukulele and Classical Guitar Tuition

Contact

​Tel:  01524 941548

​Mail: mike.gradwell@gmail.com

 

Follow Mike
  • w-facebook
  • w-youtube