I Will The Beatles

No Intro

        F                 Dm         Gm          C7         F          Dm         Am

Who knows how long I've loved you,      you know I love you still

F7     Bb      C7       Dm       F           Bb           C7  F*(riff 1)

Will I wait a lonely lifetime.   If you want me to I will

Riff One

F*  /   Dm  /   Gm7 /   C6  /  

----------------1-------0-------

--1-1---1-------1-1-1---0---3---

0-----2-2---2-0-2-----2-0-------

2-------2-------0-------0-------

      F    Dm  Gm       C7    F         Dm            Am

For if I ever saw you,     I didn't catch your name

F7      Bb      C7     Dm         F          Bb       C7         F*

But it never really mattered,  I will always feel the same

Riff Two

F*  /   F7  /  

----------------

--1-1-----------

0-----2-3---2-0-

2-------2-------

Bb                Am  Dm               Gm                 C        F*     F7  (repeat riff 2)

Love you forever and forever, love you with all my heart

Bb                    Am  Dm                   G7                               C     C7

Love you whenever we're together. Love you when we're apart

 

       F            Dm   Gm       C7          F             Dm      Am

And when at last I find you     your song will fill the air

F7       Bb        C       Dm          C#  F/C              Bb    C       Dm        C#  F/C

Sing it loud so I can hear you.              Make it easy to be near you

            Bb              C       Dm  C#   F/C G     Bb          C         C#7*         F*

For the things you do endear you to    me   Ah, you know I will         I will

Riff Three

C#7*/   /   /   C#7 /   /   /   F*  /   /   /   F   /   /   /   

----------------------------------------------------------------

--1-----1---------1-----1---------1-----1---------1-----1-------

1----31-1---3-1-1----31-1---3-1-0----20-0---2-0-0----20-0---2-0-

1-------1-------1-------1-------2-------2-------2-------2-------

 

Bb  /   F   /   Dm  /   Dm  /     Gm7                 C7         F

1-------0-----------------------  La, la, la, la     la  la      la

1-------1---------------0---1---

2-------0-------2---------------

3-------2-------2---------------

 

Mike Gradwell

Ukulele and Classical Guitar Tuition

Contact

​Tel:  01524 941548

​Mail: mike.gradwell@gmail.com

 

Follow Mike
  • w-facebook
  • w-youtube