I Wish I knew How It Would Feel To Be Free Nina Simone

Intro

/ / G / B7/ Em/ G7/ C / C / G / G / G / C / G / G / D / A7/ D /

----5---2---------------------------5---75--2---02--0-----------

3-3-3---25--3---03--3---03--3---3-3-3---0---3---3---2---20------

----2---3---4---2---0---0---2-------2---0---2---2---2-221---2---

----0---2---0---0---0---0---0-------0---0---0---0---2---0---2---

 

/ / G / B7/ Em/ G7/ C / C / G / EdimG / B7/ Em/ C / G / C / G /

----5---2-------------------------------2-----------------------

3-3-3---25--3---03--3---03--3---00------25--3---00------03--3---

----2---3---4---2---0---0---2---1---2---3---4---0---2---0---2---

----0---2---0---0---0---0---0---0---0---2---0---0---0---0---0---

Film Theme With Barry Norman

Mike Gradwell

Ukulele and Classical Guitar Tuition

Contact

​Tel:  01524 941548

​Mail: mike.gradwell@gmail.com

 

Follow Mike
  • w-facebook
  • w-youtube