In My Life The Beatles

Intro

F   /   /   /   C   /   /   /   F   /   /   /   C   /   /   /  

----8-----------7-------------------8-----------7---------------

5-------5-6-8---0---------------5-------5-6-8---0---------------

5-------5-------0---------------5-------5-------0---------------

5-------5-------0---------------5-------5-------0---------------

 

                F         C       Dm       F7            Bb Bbm             F

There are places I'll remember     all my li…fe     though some have changed

              /      C          Dm     F7                  Bb   Bbm         F

Some forever not for better,    some have go…ne     and some remain

               Dm                       Bb                   Eb                            F

All these places have their moments with lovers and friends I still can recall

                Dm                         G             Bbm           F

Some are dead and some are living, in my life I've loved them all

 

F   /   /   /   C   /   /   /  

----8-----------7---------------

5-------5-6-8---0---------------

5-------5-------0---------------

5-------5-------0---------------