In The Bleak Midwinter (instrumental)

G   /   /   /   Em  /   /   /   Am  /   /   /   D7  /   /   /

2-----3-5---2---0---------------0-----2-0-------0---------------
3-------3-------3-------3-------0-------0---0---2---------------
2-------2-------4-------4-------0-------0-------0---------------
0-------0-------0-------0-------2-------2-------2---------------

G   /   /   /   Em  /   /   /   Am  /   D7  /   G   /   /   /
2-----3-5---2---0---------------0---2---0-----------------------
3-------3-------3-------3-------0-------2-----3-3---------------
2-------2-------4-------4-------0-------0-------2---------------
0-------0-------0-------0-------2-------2-------0---------------

 

C   /   /   /   C   /   Em  /   G   /   Am  /   D   /   /   /
3---2---3---5---7-------2-------5---2---0-----------------------
0-------0-------0-------3-------3-------0---3---2---------------
0-------0-------0-------4-------2-------0-------2---------------
0-------0-------0-------0-------0-------2-------2---------------

 

G   /   /   /   Em  /   /   /   Am  /   D7  /   G   /   /   /
2-----3-5---2---0---------------0---2---0-----------------------

3-------3-------3-------3-------0-------2-----3-3---------------
2-------2-------4-------4-------0-------0-------2---------------
0-------0-------0-------0-------2-------2-------0------------
---

Mike Gradwell

Ukulele and Classical Guitar Tuition

Contact

​Tel:  01524 941548

​Mail: mike.gradwell@gmail.com

 

Follow Mike
  • w-facebook
  • w-youtube