In The Bleak Midwinter

Intro

G   /   /   /   Em  /   /   /   C   /   D   /   G   /   /   /  

2-----3-5---2---0---------------0---2---0-----------------------

3---------------3-------3-------0-------2-----3-3---------------

2---------------4-------4-------0-------2-------2---------------

0---------------0-------0-------0-------2-------0---------------

Verse

G   /   /   /   Em  /   /   /   C   /   /   /   D   /   /   /  

2-----3-5---2---0---------------0-----2-0-------0---------------

3---------------3-------3-------0-------0---0---2---------------

2---------------4-------4-------0-------0-------2---------------

0---------------0-------0-------0-------0-------2---------------

 

G   /   /   /   Em  /   /   /   C   /   D   /   G   /   /   /  

2-----3-5---2---0---------------0---2---0-----------------------

3---------------3-------3-------0-------2-----3-3---------------

2---------------4-------4-------0-------2-------2---------------

0---------------0-------0-------0-------2-------0---------------

 

C   /   /   /   C   /   Em  /   G   /   /   /   D   /   /   /  

3---2---3---5---7---7---2-------5---2---0-----------------------

0---------------0-------3-------3-----------3---2---------------

0---------------0-------4-------2---------------2---------------

0---------------0-------0-------0---------------2---------------

 

G   /   /   /   Em  /   /   /   C   /   D   /   G   /   /   /  

2-----3-5---2---0---------------0---2---0-----------------------

3---------------3-------3-------0-------2-----3-3---------------

2---------------4-------4-------0-------2-------2---------------

0---------------0-------0-------0-------2-------0---------------