Into The Valley The Skids (intro)

Intro

D   /   /   /   D   /   /   /   D   /   /   /   G   /   /   /  

5-2---5---2-----5-2---5-----------------5---4---2-------2---2---

5---5-5-----5---2---5-5---------5-------5-------3-------3-------

2-----2---------2-----2---------2-------2-------2-------2-------

2-----2---------2-----2---------2-------2-------0-------0-------

 

D   /   /   /   G   /   /   /   C   /   /   /   G   /   D   /  

--------5---4---2---------------3---3-3---5---3-2-0-2---0---2-0-

5-------5-------3---------------0---------------3-------2-------

2-------2-------2---------------0---------------2-------2-------

2-------2-------0---------------0---------------0-------2-------

 

/   /   D   /   /   /   G   /   /   /   D   /   /   /   D   /  

2-0-------------5---4---2-------2---2---------------------------

2-------5-------5-------3-------3-------5---------------5-------

2-------2-------2-------2-------2-------2---------------2-------

2-------2-------2-------0-------0-------2---------------2-------

 

/   /   D   /   /   /   D   /   /   /   

----------2-5---5-2-------2-5---5-------

--------5-------2---5---5-------2-------

--------2-------2-------2-------2-------

--------2-------2-------2-------2-------

Mike Gradwell

Ukulele and Classical Guitar Tuition

Contact

​Tel:  01524 941548

​Mail: mike.gradwell@gmail.com

 

Follow Mike
  • w-facebook
  • w-youtube