Irish Washerwoman

    C     /     /     /     G7    /     /     /     C     /    

----------------------------------------------0-----------------

3-1-0-----------0---0-3-1-0-1-----------1---1---3-1-0-----------

------0-0---0-0---0-----------2-2---2-2---2-----------0-0---0-0-

----0-----0-----0-----0-----0-----0-----0-----0-----0-----0-----

 

/     /     G7    /     C     /     C     /     /     /     G7

----------------------------------------------------------------

0---0-3-1-0-1-0-1---3-1-0-------3-1-0-----------0---0-3-1-0-1---

--0---------------2-------0-0-0-------0-0---0-0---0-----------2-

0-----0-----0-----0-----0-----0-----0-----0-----0-----0-----0---

 

  /     /     /     C     /     /     /     G7    /     C     / 

--------------0-------------------------------------------------

--------1---1---3-1-0-----------0---0-3-1-0-1-0-1---3-1-0-------

2---2-2---2-----------0-0---0-0---0---------------2-------0-0-0-

--0-----0-----0-----0-----0-----0-----0-----0-----0-----0-----0-

 

    /     /     /     /     G     /     /     /     F     C

----3-----------3---3-7-5-3-2-----------2---2-5-3-2-0-3-3---3-3-

----3-3-3---3-3-3-3---3-----3-3-3---3-3-3-3---3-----1-----3-----

----4-----4-----4-----4-----2-----2-----2-----2-----0-----0-----

----0-----0-----0-----0-----0-----0-----0-----0-----2-----0-----

 

F     C     G7    /     C     /     /     /     /     /     G

--3-3-------------------------------3-----------3---3-7-5-3-2---

1-----0---0-1-0-1---3-1-0-----------3-3-3---3-3-3-3---3-----3-3-

0-----0-----2-----2-----0-0-0-0-----4-----4-----4-----4-----2---

2-----0-----0-----0-----0-----------0-----0-----0-----0-----0---

 

  /     /     /     F     C     F     C     G7    /     C     /

--------2---2-5-3-2-0-3-3---3-3---3-3---------------------------

3---3-3-3-3---3-----1-----3-----1-----0---0-1-0-1---3-1-0-------

--2-----2-----2-----0-----0-----0-----0-----2-----2-----0-0-0-0-

--0-----0-----0-----2-----0-----2-----0-----0-----0-----0-----0-

 

    C     /     /     /     G7    /     /     /     C     /    

----------------------------------------------0-----------------

3-1-0-----------0---0-3-1-0-1-----------1---1---3-1-0-----------

------0-0---0-0---0-----------2-2---2-2---2-----------0-0---0-0-

----0-----0-----0-----0-----0-----0-----0-----0-----0-----0-----

 

/     /     G7    /     C     /    

------------------------------------

0---0-3-1-0-1-0-1---3-1-0-----------

--0---------------2-------0-0-0-----

0-----0-----0-----0-----0-----0-----

Mike Gradwell

Ukulele and Classical Guitar Tuition

Contact

​Tel:  01524 941548

​Mail: mike.gradwell@gmail.com

 

Follow Mike
  • w-facebook
  • w-youtube