Irish Washerwoman

    F     /     /     /     C     /     /     /

3-1-0-----------0---0-3-1-0-1-----------1---1-5-

----1-1-1---1-1-1-1---1-----0-3-3---3-3-0-3---0-

----0-----0-----0-----0-----0-----0-----0-----0-

----2-----2-----2-----2-----0-----0-----0-----0-

 

    F     /     /     /     C7    /     /     F  

3-1-0-----------0---0-3-1-0-1-0-1---3-1-0-------

----1-1-1---1-1-1-1---1-----0-----3-----1-1-1-1-

----0-----0-----0-----0-----0-----0-----0-----0-

----2-----2-----2-----2-----0-----0-----2-----2-

 

Repeat lines one and two

 

    F     /     /     /     C     /     /     F  

--8-8-----------8---8-Y-X-8-7-----------7---7-X-

----8-8-8---8-8-8-8---8-----8-8-8---8-8-8-8---8-

----9-----9-----9-----9-----7-----7-----7-----7-

------------------------------------------------

 

    Bb    F     Bb    F     C7    /     F     / 

8-7-5-8-8---8-8---8-8-----0-1-0-1---3-1-0-------

----6-----8-----6-----5-----0-----3-----1-1-1-1-

----5-----5-----5-----5-----0-----0-----0-----0-

----------------------------0-----0-----2-----2-

 

Repeat lines three and four

 

    F     /     /     /     C     /     /     /

3-1-0-----------0---0-3-1-0-1-----------1---1-5-

----1-1-1---1-1-1-1---1-----0-3-3---3-3-0-3---0-

----0-----0-----0-----0-----0-----0-----0-----0-

----2-----2-----2-----2-----0-----0-----0-----0-

 

    F     /     /     /     C7    /     /     F  

3-1-0-----------0---0-3-1-0-1-0-1---3-1-0-------

----1-1-1---1-1-1-1---1-----0-----3-----1-1-1-1-

----0-----0-----0-----0-----0-----0-----0-----0-

----2-----2-----2-----2-----0-----0-----2-----2-

 

Repeat lines five and six

 

X = 10

Y = 12

Mike Gradwell

Ukulele and Classical Guitar Tuition

Contact

​Tel:  01524 941548

​Mail: mike.gradwell@gmail.com

 

Follow Mike
  • w-facebook
  • w-youtube