I Saw Three Ships

/ F / / C / / F / / C / / Dm/ / Dm/ / C / / C /

------------0-3---0-----1-0---------0-----------

--1---1-3-----1-----3-----1---1-1-----3---0-----

0-0-----0-----0-----0-----2-----2-----0-----0---

--2-----0-----2-----0-----2-----2-----0-----0---

 

/ F / / C / / F / / C / / Dm/ / Dm/ / C / / F /

------------0-3---0-----1-0---------0-----------

--1---1-3-----1-----3-----1---1-1-3---3-----1---

0-0-----0-----0-----0-----2-----2-----0-----0---

--2-----0-----2-----0-----2-----2-----0-----2---

Mike Gradwell

Ukulele and Classical Guitar Tuition

Contact

​Tel:  01524 941548

​Mail: mike.gradwell@gmail.com

 

Follow Mike
  • w-facebook
  • w-youtube