Jerusalem

Intro

C   /   /   /   F   /   Am  /   /   /   G   /   /   /   /   /   /   /   C   /  

------------------------0-----------0---2---5---5---3---2---0-------------------

3-----------3---1---0---0---------------3---------------3-------3-----1-3-------

0---------------0-------0---------------2---------------2-------2-------0-------

0---------------2-------2---------------0---------------0-------0-------0-------

                       F                       C         F               C               Dm            F

And did those feet, in ancient times, walk upon England's mountains green

                     Am  Em         Am      Em                          Am  D        G

And was the holy lamb of God on England's pleasant pa…stures seen

                    Dm     Gm        Dm                       F              Bb        F 

And did the countenance divine shine forth upon these barren hills

                     Dm      G          C        Am              C          Am G  C         

And was Jerusalem, builded here among those dark satan..ic mills

                             Riff One

C   /   /   F   /   /   /   /   /   C   /   /  

------------0-----------3---8---7-5-7-----------

----0---3---1---------------5-------0-----------

0-----------0---------------5-------0-----------

------------2---------------5-------0-----------

Mike Gradwell

Ukulele and Classical Guitar Tuition

Contact

​Tel:  01524 941548

​Mail: mike.gradwell@gmail.com

 

Follow Mike
  • w-facebook
  • w-youtube