Jess The Cat

C                      Am           F                G
Here's the little story of a very special cat
                C                              Am             F          G          
Who's the friend and good companion of a certain Postman

C       /       /       /       G       /       C       /

3-0-------------------------------------------------------------

--------3-0---------------------0---3-------0-------------------

----------------2-0-----------2---------------2-0---------------

------------------------2-0-------------------------------------

Pat

 

C                                 G                        Am                       G
Travelling through the country with his good friend by his side
                      F                       C                     Am                  G
Pat knows his cat just likes to be there for he always likes to ride
                    C             Am                F                   G
Through the beautiful valley and its lovely countryside
          F                    G                       F            G        
As he sits up by the window and the views go gliding

C       /       /       /      

3-0-----------------------------

--------3-0---------------------

--------------0-2-0-----0-------

--------------------2-----------       C 

by                                                        Jess is his

F       /       /       /       /       /       /       /
----------------------------------------------------------------
--------------------------------1-------0-----------------------
------------------------0-----------------------2-------0-------
--------0-------2-----------------------------------------------

cat,

 

G

Jess is his

Em      /       /       /       /       /       /       /
--------------------------------0-------------------------------
----------------------------------------3-------1-------0-------
------------------------0---------------------------------------
--------0-------2-----------------------------------------------

cat,

 

Am           F                G                       C

Jess is his cat and it's always been like that, and it's always been like
F       /       /       /       /       /       /       /  ----------------------------------------------------------------

--------------------------------1-------0-----------------------

------------------------0-----------------------2-------0-------

--------0-------2-----------------------------------------------

that,

 

G                        
Always been like 

Em      /       /       /       /       /       /       /
--------------------------------0-------------------------------
----------------------------------------3-------1-------0-------
------------------------0---------------------------------------
--------0-------2-----------------------------------------------

that,

 

Am                     Dm          F                          G              F             G

always been like that, ever since that he was given as a tiny little kitten
       F                           G             F     G     C

Ever since that he was given as a tiny little kitten

C       /       /       /       /       /       /       /
----------------------------------------------------------------
--------3-------1---0-------------------------------------------
------------------------2-------0-------------------------------
----------------------------------------------------------------

Mike Gradwell

Ukulele and Classical Guitar Tuition

Contact

​Tel:  01524 941548

​Mail: mike.gradwell@gmail.com

 

Follow Mike
  • w-facebook
  • w-youtube