Jesse James (inst)

    G   /   /   /   C   /   G   /   G   /   /   /   D   /   /   

--0-2---2-0-------------------------------0-2---20--0-----------

3---3-------3-------0--23-0-------3-3-------3-----3-2-----------

----2-------2-----2-0-------2-------2-------2-------2-----------

----0-------0-------0-------0-------0-------0-------2-----------

 

    G   /   /   /   C   /   G   /   G   /   D   /   G   /   /  

--0-2---2-0-------------------------2---2---0-0-2-0-------------

3---3-------3-------0--23-0-------3-3-------2-------3-----------

----2-------2-----2-0-------2-------2-------2-------2-----------

----0-------0-------0-------0-------0-------2-------0-----------

Mike Gradwell

Ukulele and Classical Guitar Tuition

Contact

​Tel:  01524 941548

​Mail: mike.gradwell@gmail.com

 

Follow Mike
  • w-facebook
  • w-youtube