---------------------------------------------------------------------------
3-------3-------3-------3-------3-------------------3---3-3-3-3-3-3---3----
2---2-5-2---2-5-2---2-5-2---2-5-2-------5-2-----2---2---------------5------
0-------0-------0-------0-------0-------0-----------0---------------0------


------------------------------------------------------------
------3-3-3-----------3-3-3-----------3---3-3-3-3-3-3---3---
2-2-2-2-----5---2-2-2-2-----5---2-2-2-2---------------5-----
------0-----0---------0-----0---------0---------------0-----


3-------1-----------3---3-3-3-3-3-3-1-3----
3-------3-3-----3-3-3---------------3------
0-------0-----------0---------------0------
0-------0-----------0---------------0------


------3-3-3-1---------3-3-3-1---------3---3-3-3-3-3-3-1---3---
3-3-3-3-----3---3-3-3-3-----3---3-3-3-3---------------3-------
------0-----0---------0-----0---------0---------------0-------
------0-----0---------0-----0---------0---------------0-------


--------------------------------------2-------0-2-3-----0-2-3-5-------
3-3-3-3-------1-3-4-----1-3-4-6-----6-3-----3-----1-----------3-------
------3-----3-----1-----------3-------2-----------0-----------2-------
------0-----------1-----------3-------------------------------0-------


3-------1-----------3---3-3-3-3-3-3-1-3----
3-------3-3-----3-3-3---------------3------
0-------0-----------0---------------0------
0-------0-----------0---------------0------


------3-3-3-1---------3-3-3-1---------3---3-3-3-3-3-3-1---3---
3-3-3-3-----3---3-3-3-3-----3---3-3-3-3---------------3-------
------0-----0---------0-----0---------0---------------0-------
------0-----0---------0-----0---------0---------------0-------


3-------1-----------3---3-3-3-3-3-3-1-3----
3-------3-3-----3-3-3---------------3------
0-------0-----------0---------------0------
0-------0-----------0---------------0------


------3-3-3-1---------3-3-3-1---------3---3-3-3-3-3-3-1---3---
3-3-3-3-----3---3-3-3-3-----3---3-3-3-3---------------3-------
------0-----0---------0-----0---------0---------------0-------
------0-----0---------0-----0---------0---------------0-------


---------------------------------------------------
3-3-3-3-----------------3---3-----1---1---1-3------
------2-------5-2-----2-3---3---3-0---0-----2------
------0-------0---------0---0-----2---2-----0------

Joe 90

Mike Gradwell

Ukulele and Classical Guitar Tuition

Contact

​Tel:  01524 941548

​Mail: mike.gradwell@gmail.com

 

Follow Mike
  • w-facebook
  • w-youtube