Joe 90

G / / / G / / / G / / / G / / / G / / / G / / / G / / / G / / /

----------------------------------------------------------------

3---3---3---3---3---3---3---3---3---------------3-333333--3-----

2-252-252-252-2522-252-252-252-25-------5-2---222-------5-----2-

0---0---0---0---0---0---0---0---0-------0-0-----0-------0-------

G / / / G / / / G / / / G / / / C / / / C / / / C / / / C / / /

--------------------------------3-------1-------3-3333331-3-----

333-----333-----3-333333--3-----0-------0-3---330-------0----333

2--5-2222--5-2222-------5-------0-------0-------0-------0-------

0--0----0--0----0-------0-------0-------0-------0-------0-------

 

C / / / C / / / C / / / C / / / Eb/ / / C#/ / / F#/ / / F#/ / /

3331----3331----3-3333331-3---------------------1------------111

0--0-3330--0-3330-------0----3333-----134----1342---------------

0--0----0--0----0-------0-------3----3--1-------1---------------

0--0----0--0----0-------0-------0-------1-----------------------

 

G / / / F / / / G / / / D / / / G / / / G / / / G / / / G / / /

2-----023----02351111111000----0--------------------------------

3----3--1-------3-------2----03-3---------------3-333333--3-----

2-------0-------2-------2---2---2-------5-2---222-------5-----2-

0-------2-------0-------2-------0-------0-0-----0-------0-------

 

G / / / G / / / G / / / G / / / C / / / C / / / C / / / C / / /

--------------------------------3-------1-------3-3333331-3-----

333-----333-----3-333333--3-----0-------0-3---330-------0----333

2--5-2222--5-2222-------5-------0-------0-------0-------0-------

0--0----0--0----0-------0-------0-------0-------0-------0-------

 

C / / / C / / / C / / / C / / / G / / / G / / / G / / / G / / / 3331----3331----3-3333331-3-------------------------------------

0--0-3330--0-3330-------0----3333---3---3---3---3---3---3----333

0--0----0--0----0-------0-------2-252-252-252-2522-252-22-------

0--0----0--0----0-------0-------0---0---0---0---0---0---0-------

 

Eb/ / / C#/ / / F#/ / / F#/ / / G / / / F / / / G / / / D / / /

----------------1------------1112-----023----0235-1-1-11000----0

3-----134----1342---------------3----3--1-------3-------2-----2-

3----3--1-------1---------------2-------0-------2-------2----2--

0-------1-----------------------0-------2-------0-------2-------

 

G / / / G / / / G / / / G / / / G / / / G / / / G / / / G / / /

----------------------------------------------------------------

3---------------3-333333--3-----333-----333-----3-333333--3-----

2-------5-2---222-------5----2222--5-2222--5-2222-------5-------

0-------0-0-----0-------0-------0--0----0--0----0-------0-------

 

C / / / C / / / C / / / C / / / C / / / C / / / C / / / C / / /

3-------1-------3-3333331-3-----3331----3331----3-3333331-3-----

0-------0-3---330-------0----3330--0-3330--0-3330-------0----333

0-------0-------0-------0-------0--0----0--0----0-------0-------

0-------0-------0-------0-------0--0----0--0----0-------0-------

 

G#/ / / G#/ / / G#/ / / G#/ / / C#/ / / C#/ / / E / D G C#/ / /

--------------------------------4442----4442--------00224-------

4---------------4-444444--4--4441--1-4441--1-44444-42-3-1-------

3-------6-3---333-------6-------1--1----1--1----4---2-2-1-------

--------------------------------1--1----1--1--------2-0-1-------

Mike Gradwell

Ukulele and Classical Guitar Tuition

Contact

​Tel:  01524 941548

​Mail: mike.gradwell@gmail.com

 

Follow Mike
  • w-facebook
  • w-youtube