Joy To The World

C       G       C                       G       C                  

3-------2-----0-------------------------------------------------

0-------3-------3-----------1---0---------------------------3---

0-------2-------0---------------0-------2-------0---------------

0-------0-------0---------------0-------0-------0---------------

 

F               G               C                              

0-----------0---2-----------2---3---------------------------3---

1---------------3---------------0-------------------------------

0---------------2---------------0-------------------------------

2---------------0---------------0-------------------------------

 

                          

3---2---0-------------------3---3---2---0-----------------------

0-----------3---3-----1-0-------0-----------3---3-----1-0---0---

0---------------0-------0-------0---------------0-------0-------

0---------------0-------0-------0---------------0-------0-------

 

                                G7                                ----------------------------------------------------------------

0---0---0---0-1-3-----------1-0---------------0-1-----------0---

0---------------0---------------2---2---2---2---2-------------2-

0---------------0---------------0---------------0---------------

 

C                                       G       C 

----3-------0---------------------------------------------------

----------------3-----1-0---1---0-------------------------------

0---------------0---------------0-------2-------0---------------

0---------------0---------------0-------0-------0---------------

 

Mike Gradwell

Ukulele and Classical Guitar Tuition

Contact

​Tel:  01524 941548

​Mail: mike.gradwell@gmail.com

 

Follow Mike
  • w-facebook
  • w-youtube