Just Can't Get Enough (inst)

G   /   /   /   G   /   /   /   C5  /   /   /   C5  /   /   /  

------------0-2-------------0-2-------------0-2--------332--0-2-

3---3--33-33----3---3--33-33----3---3--33-33----3---3-----------

----------------------------------------------------------------

----------------------------------------------------------------

G   /   /   /   G   /   /   /   C5  /   /   /   C5  /   /   /  

------------0-2-------------0-2-------------0-2--------332--0-2-

3---3--33-33----3---3--33-33----3---3--33-33----3---3-----------

----------------------------------------------------------------

----------------------------------------------------------------

A   /   /   /   D   /   /   /   A   /   /   /   D   /   /   /  

--0-4--05-540---------------------0-4--05-540-------------------

--------------0-----2---3-32--2---------------0-----0--01-1-2---

------------------2----2----2-------------------2---------------

----------------------------------------------------------------

Mike Gradwell

Ukulele and Classical Guitar Tuition

Contact

​Tel:  01524 941548

​Mail: mike.gradwell@gmail.com

 

Follow Mike
  • w-facebook
  • w-youtube