Kemp's Jig

G   /   /   D   Em  /   /   D   C   /   /   D   G   /   /   /

2-----3-2---0---------0-----------------------------------------

3-------3---2---3-------3---2---0-------0---2---3-------3-------

2-------2---2---4-------4---2---0---2-------2---2-------2-------

0-------0---2---0-------0---2---0-----------2---0-------0-------

 

G   /   /   D   Em  /   /   D   C   /   /   D   G   /   /   /

2-0-2-3-2---0---------0-----------------------------------------

3-------3---2---3---3---3---2---0-------0---2---3-------3-------

2-------2---2---4-4-----4---2---0---2-------2---2-------2-------

0-------0---2---0-------0---2---0-----------2---0-------0-------

 

G   /   /   /   /   /   /   /   F   /   /   /   /   /   C   D

2---5---2---5---2---5-3-2-------0---3---0---3---0---------------

3-------3-------3-------3---3---1-------1-------1---3---0---2---

2-------2-------2-------2-------0-------0-------0-------0---2---

0-------0-------0-------0-------2-------2-------2-------0---2---

 

G   /   /   /   /   /   /   C   /   /   D   /   G   /   /   /

----------------------------------------------------------------

3---------------3-----------0-------0---2-------3-------3-------

2---2-------2---2-------2---0---2-------2-------2-------2-------

0-------4-------0---4-------0-----------2-------0-------0-------

Mike Gradwell

Ukulele and Classical Guitar Tuition

Contact

​Tel:  01524 941548

​Mail: mike.gradwell@gmail.com

 

Follow Mike
  • w-facebook
  • w-youtube