Kramer vs Kramer

aka Allegro from Vivaldi's Concerto in C for Mandolin and Strings

C   /   /   /   G   /   /   /   C   /   /   /   G   /   /   /  

----------------------------------------------------------------

--3-3-3---3-3-3---3-3-3---3-3-3---3-3-3---3-3-3-3---------------

0-------0-------2-------2-------0-------0-------2---2-----------

0-------0-------0-------0-------0-------0-------0---0-----------

 

C   /   /   /   G   /   /   /   C   /   /   /   G   /   /   /  

----------------------------------------------------------------

--3-3-3---3-3-3---3-3-3---3-3-3---3-3-3---3-3-3-3---------------

0-------0-------2-------2-------0-------0-------2---2-----------

0-------0-------0-------0-------0-------0-------0---0-----------

 

C   /   /   /   F   /   /   /   D   /   /   /   G   /   /   /  

----------------------------------0-0-0---0-0-0-----------------

--3-3-3---3-3-3---1-1-1---1-1-1-------------------3-3-3---3-3-3-

0-------0-------0-------0-------2-------2-------2-------2-------

0-------0-------2-------2-------2-------2-------0-------0-------

 

E / /   /   /   Am  /   /   /   F   /   /   /   F   /   /   /  

------------------0-0-0---0-0-0---3-3-3---3-3-3-----------------

--7-7-7---7-7-7-0-------0-------1-------1-------1---------------

4-------4-------0-------0-------0-------0-------0---------------

4-------4-------2-------2-------2-------2-------2---------------

 

C   /   /   /   C   /   /   /   C   /   G   /   C   /   /   /  

------------------------------------3-------2---3---------------

3-0-1---0-------3-0-1---0-------3---------------0---------------

0-----2---0-2---0-----2---0-2---0-------2-------0---------------

0---------------0---------------0-------0-------0---------------

Mike Gradwell

Ukulele and Classical Guitar Tuition

Contact

​Tel:  01524 941548

​Mail: mike.gradwell@gmail.com

 

Follow Mike
  • w-facebook
  • w-youtube