Lady Eleanor Intro and riff one

Intro

Dm/ / / Dm/ / / Am/ / / Am/ / / Dm/ / / Dm/ / / Am/ / / Am/ / /

0---0---0---2-3-5---5-5-5-3-2---0---0---0---2-3-5---5-5-5-3-2---

------------------------------3-------------------------------3-

----------------------------------------------------------------

----------------------------------------------------------------

 

Riff One

D / / / D / / / D / / / D / / / D / / / D / / / D / / / D / / /

------------2-3-5-5-5---5-3-2---------------2-3-5-5-5---5-3-2---

5-5-5---5-5-------------------3-5-5-5---5-5-------------------3-

----------------------------------------------------------------

----------------------------------------------------------------