Lara's Theme Dr Zhivago

A / / A / / A / / A / / A / / A / / E7/ / E7/ / E7/ / E7/ /

----------3-4-------------2-0-------------------------------

------0-----0-----------4-----0-----------------------0---2-

1-----1-----1-----------1-----1---3-2-----------2-----2-----

2-----2-----2-----------2-----2-----1-----------1-----1-----

 

E7/ / E7/ / E7/ / E7/ / A / / A / / D / / D / / D / / D / /

----------------------2-0-----------------0---------0-2-0---

4-----------2-0---------0-----------2-----2-----------2---4-

2-----------2---3-2-----1-----------2-----2-----------2-----

1-----------1-----1-----2-----------2-----2-----------2-----

 

D / / D / / A / / A / / C / / C / / C / / C / / G / / C / /

0-----------------------------------------0---0-2-----3-----

2-----2-----0-----------0-----3---------3-0-3---3-----0-----

2-----2-----1-----------0-----0-----------0-----2-----0-----

2-----2-----2-----------0-----0-----------0-----0-----0-----

 

E7/ / E7/ / A / / A / / A / / A / / A / / A / / E7/ / E7/ /

5---------------------3-4-------------2-0-------------------

4-----------------0-----0-----------4-----0-----------------

4-----------1-----1-----1-----------1-----1---3-2-----------

4-----------2-----2-----2-----------2-----2-----1-----------

 

E7/ / E7/ / E7/ / E7/ / E7/ / E7/ / A / / A / /

----------------------------------2-0-----------

------0---2-4-----------2-0---------0-----------

2-----2-----2-----------2---3-2-----1-----------

1-----1-----1-----------1-----1-----2-----------

 

Mike Gradwell

Ukulele and Classical Guitar Tuition

Contact

​Tel:  01524 941548

​Mail: mike.gradwell@gmail.com

 

Follow Mike
  • w-facebook
  • w-youtube