The Last of The Summer Wine

  G           C           D           G
------2-------3-2-0-----------0---3---2-0---------
--3-------3---0-----------2-3---------3---3-------
2-2-----------0-------2---2-----------2-------2---
--0-----------0-----------2-----------0-----------
G           C           D           G
--0-2---5---7-3-0---------------5---2-----------
3-----------0-------3---2-0---------3-----------
2-----------0-----------2---2-------2-------2---
0-----------0-----------2-----------0-----------
G           C           D           G
----2-------3-2-0-----------0---3---2-0---------
3-------3---0-----------2-3---------3---3-------
2-----------0-------2---2-----------2-------2---
0-----------0-----------2-----------0-----------
G           C           D           G
--0-2---5---7-3-0---------------0---------------
3-----------0-------3---2-0---------3-----------
2-----------0-----------2---2-------2-----------
0-----------0-----------2-----------0-----------

Mike Gradwell

Ukulele and Classical Guitar Tuition

Contact

​Tel:  01524 941548

​Mail: mike.gradwell@gmail.com

 

Follow Mike
  • w-facebook
  • w-youtube