Lean On Me Bill Withers

Intro

C   /   /   /   F   /   /   /   C   /   /   /   Em  /   G   / 

----------------------------------------------------------------

------------0---1-------1-0-----------------0---0---------------

0-------0-2-----0-----------2---0-------0-2-------------2-------

0---------------2---------------0---------------0-------0-------

 

C   /   /   /   F   /   /   /   C   /   /   /   G   /   C   / 

------------------------------------------------2-------3-------

------------0---1-------1-0-----------------0---3-------0-------

0-------0-2-----0-----------2---0-------0-2-----2-------0-------

0---------------2---------------0---------------0-------0-------

 

C                           F                        C                          Em  G

Sometimes in our lives we all have pain, we all have sorrow

C                   F                             C                        G   C 

But if we are wise, we know that there's always tomorrow

 

                                               F                                  C                             Em   G

Lean on me, when you're not strong and I'll be your friend, I'll help you carry on

C                      F                            C                            G     C 

For it won't be long till I'm gonna need somebody to lean on

Mike Gradwell

Ukulele and Classical Guitar Tuition

Contact

​Tel:  01524 941548

​Mail: mike.gradwell@gmail.com

 

Follow Mike
  • w-facebook
  • w-youtube