Lean On Me (intro)

C   /   /   /   F   /   /   /   C   /   /   /   Em  /   G   / 

----------------------------------------------------------------

------------0---1-------1-0-----------------0---0---------------

0-------0-2-----0-----------2---0-------0-2-------------2-------

0---------------2---------------0---------------0-------0-------

 

C   /   /   /   F   /   /   /   C   /   /   /   G   /   C   / 

------------------------------------------------2-------3-------

------------0---1-------1-0---------0-----------3-------0-------

0-------0-2-----0-----------2---0-------2---0---2-------0-------

0---------------2---------------0---------------0-------0-------

Mike Gradwell

Ukulele and Classical Guitar Tuition

Contact

​Tel:  01524 941548

​Mail: mike.gradwell@gmail.com

 

Follow Mike
  • w-facebook
  • w-youtube