The Leaving Of Liverpool

/ / C / / / C / / / F / / / C / / / C / / / C / / / G / / / G /

--------------------3-----0-----------------0-------------------

----0-----3-1-0-----1-------3-------0---3---0---3-0-------------

0-2-0-------0---2-0-0-------0---0-2-0-------0-------2-----------

----0-------0-------2-------0-------0-------0-------0-----------

/ / C / / / C / / / F / / / C / / / C / / / G / / / C / / / C /

--------------------3-----0-------------------------------------

----0-----3-1-0-----1-------3-------0---3-0---------------------

0-2-0-------0---2-0-0-------0---0-2-0-------2-----0-0-----------

----0-------0-------2-------0-------0-------0-------0-----------

 

/ / G / / / G / / / F / / / C / / / C / / / C / / / G / / / G /

2-3-5-----2-------5-3-----0-----------------0-------------------

----3-------3-------1-------3-------0-3-3-3-0-3-1-0-----------3-

----2-------2-------0-------0---0-2-0-------0-------2-----------

------------0-------2-------0-------0-------0-------0-----------

 

/ / C / / / C / / / F / / / C / / / C / / / G / / / C / / / C /

--------------------3-----0-------------------------------------

3-1-0---0-3-1-0-----1-------3-------0-3-3-0---------------------

----0-------0---2-0-0-------0---0-2-0-------2-----0-0-----------

----0-------0-------2-------0-------0-------0-------0-----------

Mike Gradwell

Ukulele and Classical Guitar Tuition

Contact

​Tel:  01524 941548

​Mail: mike.gradwell@gmail.com

 

Follow Mike
  • w-facebook
  • w-youtube