The Leaving Of Liverpool

    C                F       C                       G    

---------------------3-----0-----------------0----------------

----0------3-1-0-----1-------3-------0---3---0---3-0----------

0-2-0--------0---2-0-0-------0---0-2-0-------0-------2--------

----0--------0-------2-------0-------0-------0-------0--------

 

    C                F       C               G       C   

---------------------3-----0----------------------------------

----0------3-1-0-----1-------3-------0---3-0------------------

0-2-0--------0---2-0-0-------0---0-2-0-------2-----0-0--------

----0--------0-------2-------0-------0-------0-------0--------

 

       G                              F             C                                           G      

2-3-5------2-------5-3-----0-----------------0----------------

----3--------3-------1-------3-------0-3-3-3-0-3-1-0----------

----2--------2-------0-------0---0-2-0-------0-------2--------

-------------0-------2-------0-------0-------0-------0--------

 

           C                            F             C                           G           C

----------------------3-----0---------------------------------

3-3-1-0---0-3-1-0-----1-------3-------0-3-3-0-----------------

------0-------0---2-0-0-------0---0-2-0-------2-----0-0-------

------0-------0-------2-------0-------0-------0-------0-------

Mike Gradwell

Ukulele and Classical Guitar Tuition

Contact

​Tel:  01524 941548

​Mail: mike.gradwell@gmail.com

 

Follow Mike
  • w-facebook
  • w-youtube